Nine Inch Nails - Wish

Zwrotka:

      D                D  D# D  C      D                D  D# D           
E|-----------------------------------------------------------------|
H|-----------------------------------------------------------------|
G|----7----7--7--7-----7--8--7--5------7----7--7--7-----7--8--7----|
D|----7----7--7--7-----7--8--7--5------7----7--7--7-----7--8--7----|
A|----5----5--5--5-----5--6--5--3------5----5--5--5-----5--6--5----|
E|-----------------------------------------------------------------|

 

Refren:

       F            C
E|------------|------------|
H|------------|------------|
G|-----10-----|------------|
D|-----10-----|-----10-----|
A|-----8------|-----10-----|
E|------------|-----8------|

Taby i akordy do Wish - Nine Inch Nails . Znajdź najlepsze gitarowe chwyty do Wish. Zagraj Nine Inch Nails Wish chords.

Zobacz inne opracowania Nine Inch Nails
Komentarze
Skomentuj Nine Inch Nails - Wish
  • (will not be published)