Home » Tabulatury i chwyty » N » Nirvana » Smells Like Teen Spirit

Nirvana - Smells Like Teen Spirit Tab Chords


| F A# | G# C# |    power chords

E|------------------------------------------------------------|
H|------------------------------------------------------------|
G|------------------------3--3-------------------------6--6---|
D|--3---3--3--x--x--x--x--3--3---6---6--6--x--x--x--x--6--6---|
A|--3---3--3--x--x--x--x--1--1---6---6--6--x--x--x--x--4--4---|
E|--1---1--1--x--x--x--x---------4---4--4--x--x--x--x---------|

 

Zwrotka:  

E|---------1-----|
H|----1----------|
G|---------------|
D|---------------|
A|---------------|
E|---------------|


 



Taby i akordy do Smells Like Teen Spirit - Nirvana . Znajdź najlepsze gitarowe chwyty do Smells Like Teen Spirit. Zagraj Nirvana Smells Like Teen Spirit chords.

Skomentuj Nirvana - Smells Like Teen Spirit Tab Chords
  • (will not be published)