Home » Tabulatury i chwyty » O » Offspring » Cant Get My Head Around You

Offspring - Cant Get My Head Around You Tab Chords


E  - intro


Zwrotka:

     E     F5  G      H  D      G  A
e|------------------------------------------|
H|------------------------------------------|
G|--------------------4--7-7-7--------------|
D|---2-2-2--4--5-5-5--4--7-7-7--5--7-7-7----|
A|---2-2-2--4--5-5-5--2--5-5-5--5--7-7-7----|
E|---0-0-0--2--3-3-3------------3--5-5-5----|


Refren:
      C                   E
e|-----------------------------------------------|
H|-----------------------------------------------|
G|----5-5-5-5-5-5-5-5-5--------------------------|
D|----5-5-5-5-5-5-5-5-5---2-2--2-2--2-2--2-2-----|
A|----3-3-3-3-3-3-3-3-3---2-2--2-2--2-2--2-2-----|
E|------------------------0-0--0-0--0-0--0-0-----|

      C                   D           H       
e|-------------------------------------------------|
H|-------------------------------------------------|
G|----5-5-5-5-5-5-5-5-5---7-7-7-7-7---4-4-4-4-4----|
D|----5-5-5-5-5-5-5-5-5---7-7-7-7-7---4-4-4-4-4----|
A|----3-3-3-3-3-3-3-3-3---5-5-5-5-5---2-2-2-2-2----|
E|-------------------------------------------------|


Taby i akordy do Cant Get My Head Around You - Offspring . Znajdź najlepsze gitarowe chwyty do Cant Get My Head Around You. Zagraj Offspring Cant Get My Head Around You chords.

Skomentuj Offspring - Cant Get My Head Around You Tab Chords
  • (will not be published)