Home » Tabulatury i chwyty » P » Panic At The Disco » Lying Is The Most Fun

Panic At The Disco - Lying Is The Most Fun Tab

                         x2                    x2
E|-------------------------|---------------------|
H|-------------------------|---------------------|
G|------8----8----8----8---|-----5---5---5---5---|
D|---10---10---10---10-----|---6---6---6---6-----|
A|-------------------------|---------------------|
D|-------------------------|---------------------|



E|-----------------|-----------------|
H|-----------------|-----------------|
G|-----------------|-----------------|
D|-3-3-3-3-3-3-3-3-|-3-3-3-3-3-3-3-3-|
A|-3-3-3-3-3-3-3-3-|-3-3-3-3-3-3-3-3-|
D|-3-3-3-3-3-3-3-3-|-3-3-3-3-3-3-3-3-|


E|-------------------------|-----------------|-----------------|-----------------|
H|-------------------------|-----------------|-----------------|-----------------|
G|-------------------------|-----------------|-----------------|-----------------|
D|-10-10-10-10-10-10-10-10-|-8-8-8-8-8-8-8-8-|-6-6-6-6-6-6-6-6-|-6-6-6-6-6-6-6-6-|
A|-10-10-10-10-10-10-10-10-|-8-8-8-8-8-8-8-8-|-6-6-6-6-6-6-6-6-|-6-6-6-6-6-6-6-6-|
D|-10-10-10-10-10-10-10-10-|-8-8-8-8-8-8-8-8-|-6-6-6-6-6-6-6-6-|-6-6-6-6-6-6-6-6-|



Taby i akordy do Lying Is The Most Fun - Panic At The Disco . Znajdź najlepsze gitarowe chwyty do Lying Is The Most Fun. Zagraj Panic At The Disco Lying Is The Most Fun chords.

Skomentuj Panic At The Disco - Lying Is The Most Fun Tab
  • (will not be published)