Home » Tabulatury i chwyty » P » Perfect » Kołysanka Dla Nieznajomej

Perfect - Kołysanka Dla Nieznajomej Tab Chords

Intro:
    
     C/G                          Am7
E|----0--------0----3/5/3-0---|----0---------0----3/5/3-0-----|
H|----1-------------3/5/3-0---|----1--------------3/5/3-0-----|
G|----0----0------------------|----0-----0--------------------|
D|----2-----------------------|----2--------------------------|
A|----3-----------------------|----0--------------------------|
E|----3-----------------------|-------------------------------|

      F     Fsus4  F            (D) Fsus4   F   Dsus4
E|----1------1--1--1------|-----(2)/6---6---5---3-------(3)---------------|
H|----1------1--1--1------|-----(3)/6---6---6---3-------(3)---------------|
G|----2------3--3--2------|-----(2)/5---5---5---2-------0h2--0------------|
D|----3------3--3--3------|-------------------------------------0p2--0----|
A|----3-------------------|-----------------------------------------------|
E|----1-------------------|-----------------------------------------------|

 

Zwrotka:

| C/G | Am | F | F |  x2

| C/G | Am | Em | F C |

| F | G Am | F | F G |



Refren:

| C/G  (C)G7 | Am7 G7 | 

| C/G  (C)G7 | Am7 G7 |

| C/G  (C)G7 | Am7 | Em | F G |

| F | G Am | F | G C |


Taby i akordy do Kołysanka Dla Nieznajomej - Perfect . Znajdź najlepsze gitarowe chwyty do Kołysanka Dla Nieznajomej. Zagraj Perfect Kołysanka Dla Nieznajomej chords.

Skomentuj Perfect - Kołysanka Dla Nieznajomej Tab Chords
  • (will not be published)