Pete Francis - Untold


| Dm C | A# F |

 

     F   (intro)
E|-------------------------|
H|-------------------------|
G|-------------------------|
D|-------------------------|
A|----------3--4--3--------|
E|----3--6-----------6-----|

     F
E|---1----1----------------|
H|---1h3--1-----1----1-----|
G|--------------0h2--0-----|
D|-------------------------|
A|-------------------------|
E|-------------------------|

Taby i akordy do Untold - Pete Francis . Znajdź najlepsze gitarowe chwyty do Untold. Zagraj Pete Francis Untold chords.

Zobacz inne opracowania Pete Francis
    Skomentuj Pete Francis - Untold
    • (will not be published)