Home » Tabulatury i chwyty » P » Pink Floyd » Pigs Three Different Ones

Pink Floyd - Pigs Three Different Ones Bas Tab Chords

Piano intro:

E|----0--2--3--2--0--2--3-----0--2--3--2--0--2--3--|
B|-0-----------------------0-----------------------|
G|-------------------------------------------------|
D|-------------------------------------------------|
A|-------------------------------------------------|
E|-------------------------------------------------|

E|----0--2--3--2--0--2--3-----0--2--3--2--0--2--3--|
B|-1-----------------------1-----------------------|
G|-------------------------------------------------|
D|-------------------------------------------------|
A|-------------------------------------------------|
E|-------------------------------------------------|


Gitara intro:

E|-----------------------------|-----------------------------|
B|-0---0----0-----0------------|-0---0----0-----0------------|
G|-0---0----0-----0------------|-0---0----0-----0------------|
D|-9---9----9-----9------------|-5---5----5-----5------------|
A|-7---7----7-----7------------|-3---3----3-----3------------|
E|-----------------------------|-----------------------------|



Zwrotka:

e  C  G  (D)   x3


A|-------------------|
E|---3--2--3--4--5---|


A   G G#   x4

e    C         

e  D    x4
  



Bas outro:

G|----9-----11----12----14----16----14----12-----|
D|-----------------------------------------------|
A|-7-----9-----10----12----14----12----10----9---|
E|-----------------------------------------------|

G|----5-----7-----9-----11----12----11----9------|
D|-----------------------------------------------|
A|-3-----5-----7-----9-----10----9-----7-----5---|
E|-----------------------------------------------|

Taby i akordy do Pigs Three Different Ones - Pink Floyd . Znajdź najlepsze gitarowe chwyty do Pigs Three Different Ones. Zagraj Pink Floyd Pigs Three Different Ones chords.

Skomentuj Pink Floyd - Pigs Three Different Ones Bas Tab Chords
  • (will not be published)