Home » Tabulatury i chwyty » P » Pink Floyd » Young Lust

Pink Floyd - Young Lust Bas

G|-----------------------------|----------------------|----------------------------|
D|-----------------------------|----------------------|----------------------------|
A|------------5----7-----------|----------------------|------------5----7-------5--|
E|-0----0-------------------0--|------------5---5-----|-0-----0--------------------|

G|------------------------------|-------------------------|-----------------------------|
D|------------------------------|-------------------------|-----------------------------|
A|-7----------------------5--7--|----------5----7---------|------4--4--4---5---4---5----|
E|------0----0----0-------------|-0----0---------------0--|-----------------------------|

G|---------------------------|------------------------|---------------------------------|
D|---------------------------|------------------------|---------5---5---3---3---2---2---|
A|-----------5---7--------5--|-7----------------------|---------------------------------|
E|-0----0--------------------|------0----0----0-------|-3---3---------------------------|

G|---------------------------------|---------------------|-----------------------------|
D|-0---0---------------------------|---------------------|-----------------------------|
A|---------3---3---2---2---0---0---|---------------7-----|-7---------------------------|
E|---------------------------------|-0-------------------|-----------------------------|

G|--------------------------|---------------------------|-----------------------------|
D|--------------------------|---------------------------|-----------------------------|
A|--------------------------|---------------------------|-----------------------------|
E|-5----5-------5----5------|-5----5-------5----5-------|-3----3-------3-----3--------|

G|--------------------------|---------------------|-----------------------|-----------|
D|--------------------------|---------------------|-----------------------|-----------|
A|--------------------------|---------------------|-----------------------|-----------|
E|-3---3------3--3---4--4---|-5---5-----5---5-----|-5---5------5---5------|-----0-----|


Przejście II zwrotka:

G|----------------------------------|--------------------------------|
D|---------0---2h3p2---2p1p0--------|-2p0--------------------2-------|
A|-----2----------------------2--0--|-------2p0--1p0-----------------|
E|-0--------------------------------|------------------3p0-----------|


Solo:

G|------------------------------|-------------------------------------|
D|------------------------------|-------------------------------------|
A|------7-------7-------7-------|-7-------7------0--10--9---9--7------|
E|-0--------0-------0-------0---|-----0-------0-----------------------|

G|------------------------------|-------------------------------------|
D|------------------------------|-------------------------------------|
A|------7-------7-------7-------|-7-------7------0--10--9---9--7------|
E|-0--------0-------0-------0---|-----0-------0-----------------------|

G|------------------------------|-------------------------------------|
D|------------------------------|-------------------------------------|
A|------7-------7-------7-------|-7-------7------0--10--9---9--7------|
E|-0--------0-------0-------0---|-----0-------0-----------------------|


G|---------------------------|---------------------------|
D|---------2------------4----|---------5------------5----|
A|---------------------------|---------------------------|
E|-0---0--------2---2--------|-3---3--------3---3--------|

G|---------------------------------|---------------------------------|
D|---------5---5---3---3---2---2---|-0---0---------------------------|
A|---------------------------------|---------3---3---2---2---0-------|
E|-3---3---------------------------|-----------------------------3---|

G|-------------------------|---------------------------------------|
D|-------------------------|---------------------------------------|
A|-------------------------|---------------------------------------|
E|-5-----3-----5-----3-----|-5---3--3--5---3--3--5---3--3--5---3---|

G|---------------------------------|---------------------------------|
D|---------5---5---3---3---2---2---|-0---0---------------------------|
A|---------------------------------|---------3---3---2---2---0-------|
E|-3---3---------------------------|-----------------------------3---|

G|-------------------------|---------------------------------------|-------|
D|-------------------------|---------------------------------------|-------|
A|-------------------------|---------------------------------------|-------|
E|-5-----3-----5-----3-----|-5---3--3--5---3--3--5---3--3--5---3---|---0---|

Taby i akordy do Young Lust - Pink Floyd . Znajdź najlepsze gitarowe chwyty do Young Lust. Zagraj Pink Floyd Young Lust chords.

Skomentuj Pink Floyd - Young Lust Bas
  • (will not be published)