Home » Tabulatury i chwyty » P » Puff Daddy » Ill Be Missing You

Puff Daddy - Ill Be Missing You Tab


e|-----------------------|--------------------------|
H|------------0----------|--------------------------|
G|------2--------2-----2-|-------------0------------|
D|---0-----0--------0----|-------4--------4-----4---|
A|-----------------------|----2-----2--------2------|
E|-3---------------------|-0------------------------|


e|------------------------|---------------------------------|
B|-------------3----------|-------------5-------------------|
G|-------5--------5-----5-|-------7--------7-----7----------|
D|----5-----5--------5----|----7-----7--------7-------------|
A|-3----------------------|-5-------------------------------|
E|------------------------|---------------------------------|


e|-------------------------|
B|------------0------------|
G|------2--------2-----2---|
D|---0-----0--------0------|
A|-------------------------|
E|-3-----------------------|

Taby i akordy do Ill Be Missing You - Puff Daddy . Znajdź najlepsze gitarowe chwyty do Ill Be Missing You. Zagraj Puff Daddy Ill Be Missing You chords.

Zobacz inne opracowania Puff Daddy
    Skomentuj Puff Daddy - Ill Be Missing You Tab
    • (will not be published)