Home » Tabulatury i chwyty » Q » Queen » A Kind Of Magic

Queen - A Kind Of Magic Bas


G|-----------------------------|-----------------------------|
D|-----------------------------|-----------------------------|
A|-----------------------------|-----------------------------|
E|-5-----5-----5---0---2---0---|-5-----5-----5---0---2---0---|


G|-------------------------|-----------------------------|---------------------------|
D|-------------------------|-----------------------------|---------------------------|
A|----------------------0--|-2-----2-----2---------------|-2----2----2---------------|
E|-5----5----5---0---2-----|-----------------4---2---4---|---------------4---2---4---|


G|--------------------------|---------------------------|-----------------------------|
D|--------------------------|---------------------------|-----------------------------|
A|-5----5---5---------------|-5----5----5---------------|-----------------------------|
E|---------------7---5---7--|----------------7---5---7--|-5-----5-----5---0---2---0---|


G|---------------------------|---------------------------|--------------------------|
D|---------------------------|---------------------------|--------------------------|
A|---------------------------|---------------------------|--------------------------|
E|-5---5-----5---0---2---0---|-5----5----5---0---2---0---|-5---5----5---0---2---0---|


G|---------------------------|-------------------------|----------------------------|
D|---------------------------|-------------------------|----------------------------|
A|-2----2----2---------------|-2---2---2---------------|-5----5----5----------------|
E|----------------4---2---4--|-------------4---2---4---|----------------7---5---7---|


G|-------------------------|------------------------------|------------------------------|
D|-------------------------|------------------------------|-----7---4---2---2------------|
A|-5---5---5---------------|------------------------------|---------------------4----2---|
E|--------------7---5---7--|-5-----5------5---0---2---0---|-5----------------------------|


G|-----------------------|-----------------|------------------|--------------------------|
D|-----------------------|-----------------|------------------|--------------------------|
A|-----------------------|-----------------|-5-------5--------|-5----5---5---4---2---0---|
E|-2-----2---2-----2--2--|-2----2--2--2----|------5-------5---|--------------------------|


G|---------------------------|------------------------|-----------------------------------|
D|---------------------------|-4----------------------|-----------------------------------|
A|-----------------------4---|-------4------------5---|-5--7--7---7---7---7---7---7-------|
E|-2--------2---2------------|-----------2------------|-------------------------------7---|

G|-----------------------------|-----------------------------|----------------------------|
D|-----------------------------|-----------------------------|----------------------------|
A|-----------------7---7---7---|-5--5----------5--5----------|-5--5---------5--5----------|
E|-0--0--0--0--0---------------|--------7--5----------7--5---|--------7--5---------7--5---|


G|-----------------------------|-----------------------------|-----------------------------|
D|-----------------------------|-----------------------------|-----------------------------|
A|-0--0----------0--0----------|-0--0----------0--0----------|-5--5----------5--5----------|
E|--------2--0----------2--0---|--------2--0----------2--0---|--------7--5----------7--5---|


G|-----------------------------|-----------------------------|-----------------------------|
D|-----------------------------|-----------------------------|-----------------------------|
A|-5--5----------5--5----------|-0--0----------0--0----------|-0--0----------0--0----------|
E|--------7--5----------7--5---|--------2--0----------2--0---|--------2--0----------2--0---|


G|-----------------------|---------------------------|-----------------------------|
D|-----------------------|---------------------------|-----------------------------|
A|-----------------------|---------------------------|-5--5----------5--5----------|
E|-0---0--0--0--0--0--0--|-3--3--3--3--3--3--3--3--7-|--------7--5----------7--5---|


G|---------------------------|--------------------------|-------------------------------|
D|---------------------------|--------------------------|---------------4---2-----------|
A|-5--5----------5--5--------|----------4-----------4---|-----------4-----------4-------|
E|--------7--5---------7--5--|-0--0--0-----0--0--0------|-0--0--0-------------------0---|


G|--------------------------|-----------------------------|-----------------------------|
D|--------------------------|-----------------------------|-----------------------------|
A|--------------------------|-----------------------------|-2-----2-----2---------------|
E|-5----5----5---0---2---0--|-5-----5-----5---0---2---0---|-----------------4---2---4---|

Taby i akordy do A Kind Of Magic - Queen . Znajdź najlepsze gitarowe chwyty do A Kind Of Magic. Zagraj Queen A Kind Of Magic chords.

Skomentuj Queen - A Kind Of Magic Bas
  • (will not be published)