Home » Tabulatury i chwyty » Q » Queen » Crazy Little Thing Called Love

Queen - Crazy Little Thing Called Love Bas


G|----------------|-----------------|--------------9--|---------------|
D|-------------9--|--------------9--|------9-12-12----|--10-10-9-9----|
A|-----9-12-12----|------9-12-12----|--10-------------|-----------10--|
E|--10------------|--10-------------|-----------------|---------------|

G|----------------|-----------------|--------------9--|---------------|
D|-------------9--|--------------9--|------9-12-12----|--10-10-9-9----|
A|-----9-12-12----|------9-12-12----|--10-------------|-----------10--|
E|--10------------|--10-------------|-----------------|---------------|

G|------------|---------------|-------------------|
D|---------9--|---------------|----------9-9h12---|
A|----9-12----|---------------|-----9-12----------|
E|-10---------|--6-66-6-8-8---|--10---------------|


Taby i akordy do Crazy Little Thing Called Love - Queen . Znajdź najlepsze gitarowe chwyty do Crazy Little Thing Called Love. Zagraj Queen Crazy Little Thing Called Love chords.

Skomentuj Queen - Crazy Little Thing Called Love Bas
  • (will not be published)