Home » Tabulatury i chwyty » Q » Queen » We Are The Champions

Queen - We Are The Champions

Cm  Gm7    I ve paid my dues...

D# D#sus4    And bad mistakes...

 
    
E|-----------|-----------|-------|-------|-----------|
H|-----------|-----------|-------|-------|-----------|
G|---8---7---|---5-------|---3---|---3---|---3---5---|
D|---8---7---|---5---3---|---3---|---3---|---3---5---|
A|---6---5---|---3---3---|---1---|---1---|---1---3---|
E|-----------|-------1---|-------|-------|-----------|

 

Refren:

E|-------|-------|-------|-----------|
H|-------|-------|-------|-----------|
G|-------|-------|---7---|---3---5---|
D|---3---|---7---|---7---|---3---5---|
A|---3---|---7---|---5---|---1---3---|
E|---1---|---5---|-------|-----------|

E|-------|-------|--------------|-------|
H|-------|-------|--------------|-------|
G|-------|-------|--------------|-------|
D|---3---|---7---|---8----------|---4---|
A|---3---|---7---|---8----7--5--|---4---|
E|---1---|---5---|---6----5--3--|---2---|

E|-------|-------|-------|-------|
H|-------|-------|-------|-------|
G|-------|-------|---3---|---3---|
D|---5---|---5---|---3---|---3---|
A|---5---|---5---|---1---|---1---|
E|---3---|---3---|-------|-------|

E|-------|-------|-------|-------|-------|
H|-------|-------|-------|-------|-------|
G|-------|-------|-------|-------|-------|
D|---3---|---5---|---6---|---8---|---10--|
A|---3---|---5---|---6---|---8---|---10--|
E|---1---|---3---|---4---|---6---|---8---|

Taby i akordy do We Are The Champions - Queen . Znajdź najlepsze gitarowe chwyty do We Are The Champions. Zagraj Queen We Are The Champions chords.

Komentarze
Skomentuj Queen - We Are The Champions
  • (will not be published)