Home » Tabulatury i chwyty » Q » Queen » We Will Rock You

Queen - We Will Rock You Tab

------------------------------------------|-----------------------------
-5-------222---2xx--2--2-214---h15--1514--|--1414h1515p1415p141514--14--
-5-------222---2xx--2--2-214--------1414--|--1414---14---14---1414------
-5-------222---2xx-22--2-214-14h16--1614--|----14h1616p1416p141614------
-3-------000---0xx-00--0-0-0-------0------|-0---0---------0------0------
--------------3---2-----3-----------------|-----------------------------

-1715--14--------------------------------------------14----------
-----------17--1514--15---1514--------17--1714-17b19---1714------
---------------1414--14-------1614------14-(14)------------171614
(14)-14--14--14----1616--------(14)-14-----(14)------------------
(-0)------------------0------------------------------------------
-----------------------------------------------------------------

-------------------|--------------------------|------|
-14-15p1415141414--|-14-15p1415141414-15--14--|------|
-14-14---14141414--|-14-14---14141414-14--14--|--0/--|
-14-16p1416141414--|-14-16p1416141414-16--14--|--/0--|
------------0-0-0--|0-0---------0-0-0--0--0---|------|
-------------------|--------------------------|twice |

Taby i akordy do We Will Rock You - Queen . Znajdź najlepsze gitarowe chwyty do We Will Rock You. Zagraj Queen We Will Rock You chords.

Skomentuj Queen - We Will Rock You Tab
  • (will not be published)