Home » Tabulatury i chwyty » R » Radical Face » Welcome Home

Radical Face - Welcome Home Tab


Intro:

||---------------------------------|----------------------------------------------|
||---------------------------------|----------------------------------------------|
||---------------------------------|----------------------------------------------|
||-----3----3----3----3----3----3--|----3---3---3---2---2-----(2)-----(2)---------|
||---------------------------------|--0---0---0---0---0---(0)-----(0)-----(0)--3--|
||--1----1----1----1----1----1-----|----------------------------------------------| x3

|----------------------------------------------------------------------|
|----------------------------------------------------------------------|
|----------------------------------------------------------------------|
|----3---3---3---3---3---3---3---3-----3---3---3---3---3---3----5---5--|
|--1---1---1-------------------------1---1---1----------------3---3----|
|--------------1---1---1---1---1-----------------1---1---1-------------|

|-------------------------------------------------------------------------------------|
|-------------------------------------------------------------------------------------|
|-------------------------------------------------------------------------------------|
|----3---3---3---3---3---3---3---3-----3---3---3---3---3---3----5---5---5---7---7---7-|
|--1---1---1-------------------------1---1---1----------------3---3---3---3---3---3---|
|--------------1---1---1---1---1-----------------1---1---1----------------------------|


Zwrotka:


Sleep...

|-----------------------------------------------------|
|-----------------------------------------------------|
|-----------------------------------------------------|
|----3---3---3---3---3---3----2---2---2---2---2-------|
|---------------------------0---0---0---0---0---0--3--|
|--1---1---1---1---1---1------------------------------|

So I choke...

|---------------------------------------------------------------------|
|---------------------------------------------------------------------|
|---------------------------------------------------------------------|
|----3---3---3---3---3---3---3---3----3---3---3---3---3---3----5---5--|
|--1---1---1------------------------1---1---1----------------3---3----|
|--------------1---1---1---1---1----------------1---1---1-------------| x2

Sheets...

|-----------------------------------------------------|
|-----------------------------------------------------|
|-----------------------------------------------------|
|----3---3---3---3---3---3----2---2---2---2---2-------|
|---------------------------0---0---0---0---0---0--3--|
|--1---1---1---1---1---1------------------------------|

From an old...

|-----------------------------------------------------------|----------|
|-----------------------------------------------------------|----------|
|-----------------------------------------------------------|----------|
|----3---3---3---3---3---3---3---3----3---3---3---3---3---3-|---5---5--|
|--1---1---1------------------------1---1---1---------------|-3---3----|
|--------------1---1---1---1---1----------------1---1---1---|----------|

|-----------------------------------------------------------|-------------|
|-----------------------------------------------------------|-------------|
|-----------------------------------------------------------|-------------|
|----3---3---3---3---3---3---3---3----3---3---3---3---3---3-|---5---5---7-|
|--1---1---1------------------------1---1---1---------------|-3---3---3---|
|--------------1---1---1---1---1----------------1---1---1---|-------------|


Refren:

|---5---6---1---|
|---6---6---1---|
|---7---7---2---|
|---7---8---3---|
|---5---8---3---|
|-------6---1---|  x4

Taby i akordy do Welcome Home - Radical Face . Znajdź najlepsze gitarowe chwyty do Welcome Home. Zagraj Radical Face Welcome Home chords.

Zobacz inne opracowania Radical Face
    Skomentuj Radical Face - Welcome Home Tab
    • (will not be published)