Home » Tabulatury i chwyty » R » Rage Against The Machine » Calm Like A Bomb

Rage Against The Machine - Calm Like A Bomb Tab


E|---------------------------------|
B|---------------------------------|
G|-4---4---4---4---4---4---4---4---|
D|-x---x---x---x---x---x---x---x---|
A|-2---2---2---2---2---2---2---2---|
E|---------------------------------|


E|----------------------|----------------------|----------------------|--------------|
B|----------------------|----------------------|----------------------|--------------|
G|----------------------|----------------------|----------------------|--------------|
D|---------------0------|--------------0-------|---------------0------|-2----0-------|
A|-0--2---x--x------2---|-x--x--x---2------2---|-0--2---x--x------2---|-0--------2---|
E|--------x--x----------|-x--x--x--------------|--------x--x----------|--------------|




Taby i akordy do Calm Like A Bomb - Rage Against The Machine . Znajdź najlepsze gitarowe chwyty do Calm Like A Bomb. Zagraj Rage Against The Machine Calm Like A Bomb chords.

Skomentuj Rage Against The Machine - Calm Like A Bomb Tab
  • (will not be published)