Rage Against The Machine - Guerilla Radio Tab


E|------------------------------------------|
H|------------------------------------------|
G|------------------------------------------|
D|------------------------------------------|
A|--------------------------------0---2-----|
D|----2---4----4-----2--4--2--4-------------|



E|------------------------------------------|
H|------------------------------------------|
G|--------------------------------2---4-----|
D|----2---4----4-----2--4--2--4---2---4-----|
A|----2---4----4-----2--4--2--4---0---2-----|
D|----2---4----4-----2--4--2--4-------------|

E|-----------------------------------------|
H|-----------------------------------------|
G|----2------------------------------------|
D|----2---4-------2---6---4------2---4-----|
A|----0---4-------2---6---4------2---4-----|
D|--------4-------2---6---4------2---4-----|


Taby i akordy do Guerilla Radio - Rage Against The Machine . Znajdź najlepsze gitarowe chwyty do Guerilla Radio. Zagraj Rage Against The Machine Guerilla Radio chords.

Skomentuj Rage Against The Machine - Guerilla Radio Tab
  • (will not be published)