Home » Tabulatury i chwyty » R » Rage Against The Machine » Kick Out The Jams

Rage Against The Machine - Kick Out The Jams Tab


e|-------------------|
B|-------------------|
G|-----2--2--2--4----|
D|-----2--2--2--4----|
A|-----0--0--0--2----|
E|-------------------|

e|--------------------------------------|
B|--------------------------------------|
G|--------------------------------------|
D|-----------5--7----7--7--7---7--------|
A|-----7--7--0--0----0--0--0---0--------|
E|-----0--0-----------------------------|

Taby i akordy do Kick Out The Jams - Rage Against The Machine . Znajdź najlepsze gitarowe chwyty do Kick Out The Jams. Zagraj Rage Against The Machine Kick Out The Jams chords.

Skomentuj Rage Against The Machine - Kick Out The Jams Tab
  • (will not be published)