Home » Tabulatury i chwyty » R » Rage Against The Machine » Killing In The Name

Rage Against The Machine - Killing In The Name Tab


dropped D

E|-------------|
B|------3------|
G|------2------|
D|------0------|
A|------0------|
D|------0------|

                                     x3
E|-------------------------------------|-----------------------------------|
B|-------------------------------------|-----------------------------------|
G|-----------------------------11--12--|------------------------------12b--|
D|---------------------11--12----------|---------------------11--12--------|
A|-------------------------------------|-----------------------------------|
D|-0------0--0-----0-------------------|-0------0--0-----0-----------------|

E|-------------------------------------|----------------------------------|
B|-------------------------------------|----------------------------------|
G|---------------------8----8------8---|---------------------8------------|
D|---------------------x----x------x---|---------------------x------------|
A|---------------------6----6------6---|---------------------6------------|
D|-0------0--0-----0-------------------|-0------0--0-----0----------------|


Zwrotka:

E|----------------------------------------|
B|----------------------------------------|
G|----------------------------------------|
D|------------------3h4-------------------|
A|-----3h5----x--x--------5-------2h3p2---|
D|-0----------x--x------------0---2h3p2---|

E|---------------------------------------|-------------------------------------|
B|---------------------------------------|-------------------------------------|
G|---------------------------------------|-------------------------------------|
D|-----------------9-----------------8---|-----------------7-------------------|
A|-----3h5--x--x----------3h5--x--x------|-----3h5--x--x------0---2h3p2h3--0---|
D|-0--------x--x------0--------x--x------|-0--------x--x------0---2h3p2h3--0---|

E|---------------------------------------|-------------------------------------|
B|---------------------------------------|-------------------------------------|
G|---------------------------------------|-------------------------------------|
D|-----------------9-----------------8---|-----------------7-------------------|
A|-----3h5--x--x----------3h5--x--x------|-----3h5--x--x-----------------------|
D|-0--------x--x------0--------x--x------|-0--------x--x------0-0-0-0-0-0-0-0--|


Refren:

E|-----------------------|
B|-----------------------|
G|-----7--7------7-------|
D|-----x--x------x-------|
A|-----5--5------5-------|
D|-----0--0------0-------|

E|--------------------------------------------|
B|--------------------------------------------|
G|----7----------7-------7----7---------------|
D|----x---x--x---x---x---x----x-----------5---|
A|----5---x--x---5---x---5----5---3---5---3---|
D|--------x--x-------x------------3---5-------|

Taby i akordy do Killing In The Name - Rage Against The Machine . Znajdź najlepsze gitarowe chwyty do Killing In The Name. Zagraj Rage Against The Machine Killing In The Name chords.

Skomentuj Rage Against The Machine - Killing In The Name Tab
  • (will not be published)