Home » Tabulatury i chwyty » R » Rammstein » Du Hast

Rammstein - Du Hast Tab


E|----------------------------|
H|----------------------------|
G|----------------------------|    x4
D|---7\5--2---2--2-2-2--2-2---| 
A|---7\5--2---2--2-2-2--2-2---|
E|---5\3--0---0--0-0-0--0-0---|

e|----------------------------|
B|----------------------------|
G|----------------------------|
D|---5\7--7---7--7-7-7--7-7---|
A|---5\7--7---7--7-7-7--7-7---|
E|---3\5--5---5--5-5-5--5-5---|

Taby i akordy do Du Hast - Rammstein . Znajdź najlepsze gitarowe chwyty do Du Hast. Zagraj Rammstein Du Hast chords.

Zobacz inne opracowania Rammstein
Skomentuj Rammstein - Du Hast Tab
  • (will not be published)