Red Hot Chili Peppers - Snow (Hey Oh) Bas Tab


Zwrotka:

G|----------------|----------------|----------------|-------------------|
D|----------------|----------------|----------------|-------------------|
A|-------4-6-7----|-------6-7-9----|-------4-6-7----|-------6-7-9-------|
E|---4------------|---7------------|---4------------|---7-----------7---|


Refren:

G|-------------------|------------------|-----------------|-----------------|
D|-------------------|------------------|-----------------|-----------------|
A|------4-6-7---6-4--|-----6-7-9--------|----4-6-7---6-4--|-----------------|
E|--4----------------|-7-----------7-6--|-4---------------|-7---6-4-2---2---|


Taby i akordy do Snow (Hey Oh) - Red Hot Chili Peppers . Znajdź najlepsze gitarowe chwyty do Snow (Hey Oh). Zagraj Red Hot Chili Peppers Snow (Hey Oh) chords.

Skomentuj Red Hot Chili Peppers - Snow (Hey Oh) Bas Tab
  • (will not be published)