Home » Tabulatury i chwyty » R » Red Hot Chili Peppers » The Adventures Of Rain Dance Maggie

Red Hot Chili Peppers - The Adventures Of Rain Dance Maggie Bas Chords


gitara basowa
                                                 1          2
G|--------------------------------------------||--------|---------||
D|------------5-5-----------------------------||--------|--------o||
A|--7---7---7-----7--5--4----3---3---3-5-5-3--||--5--6--|--2-----o||
E|--------------------------------------------||--------|-----5---||



Zwrotka:

| e | C |

 


Refren:

| G | e | G | e |    Hey now, we've gotta make...

| C | G/H | a | D |   She told me too and show...

Taby i akordy do The Adventures Of Rain Dance Maggie - Red Hot Chili Peppers . Znajdź najlepsze gitarowe chwyty do The Adventures Of Rain Dance Maggie. Zagraj Red Hot Chili Peppers The Adventures Of Rain Dance Maggie chords.

Komentarze
  1. Kuba

    gitara basowa

                                                     1          2
    G|--------------------------------------------||--------|---------||
    D|------------5-5-----------------------------||--------|--------o||
    A|--7---7---7-----7--5--4----3---3---3-5-5-3--||--5--6--|--2-----o||
    E|--------------------------------------------||--------|-----5---||
    
Skomentuj Red Hot Chili Peppers - The Adventures Of Rain Dance Maggie Bas Chords
  • (will not be published)