Home » Tabulatury i chwyty » R » Red Hot Chili Peppers » Under The Bridge

Red Hot Chili Peppers - Under The Bridge Tab Chords

Intro:

      D                             F#
E|--------------------------------|------------------------------------|
H|----3-----------3---------------|------------------------------------|
G|----------2--------2------------|-------------3----------------------|
D|-------4-----4------------------|--------4--------4---4-2--0---------|
A|----5-----------------4-2-0-----|-----4-----4------------------4-----|
E|-----------------------------4--|--2---------------------------------|


Zwrotka:

| E H | c#  H A |

| E H | c# A |


Refren:

| f# E | H f# |

      f#    E/G#         H     f#
E|-----9-----------|-----11-----9----|
H|----10-----9-----|-----12----10----|
G|----11-----9-----|-----11----11----|
D|----11-----9-----|-----------11----|
A|-----9----11-----|------------9----|
E|-----------------|-----------------|

Outro:

| A C | G F |

 


wersja II
kap. II

C E  - intro

D A  h (A) G  - zwrotka

e D A e  - refren

G A# F D#   -  outro

Taby i akordy do Under The Bridge - Red Hot Chili Peppers . Znajdź najlepsze gitarowe chwyty do Under The Bridge. Zagraj Red Hot Chili Peppers Under The Bridge chords.

Skomentuj Red Hot Chili Peppers - Under The Bridge Tab Chords
  • (will not be published)