Rolling Stones - Angie Tab Chords

Zwrotka/Intro:

| a (a7) | E (E7) |

     a7
E|---3-----5--5--5--5--3-------|
H|---1-----5--5--5--5--3--5----|
G|---2--------------------5----|
D|---2-------------------------|
A|-----------------------------|
E|-----------------------------|


| G F | C |

E|----0---0---0---0----------------------|
H|----1---1---1---1-----------------1----|
G|----0---0---0---0--------------0-------|      grane na C
D|----3---2---0---2-----------0----------|
A|----3---3---3---3--------2-------------|
E|---------------------------------------|
 

Refren:

| G | d a | 

| C F | G |

 

Taby i akordy do Angie - Rolling Stones . Znajdź najlepsze gitarowe chwyty do Angie. Zagraj Rolling Stones Angie chords.

Skomentuj Rolling Stones - Angie Tab Chords
  • (will not be published)