Sabaton - 40-1 Tab


Intro/refren:

E|--------------------------------------------------|
B|--------------------------------------------------|
G|--------------------------------------------------|
D|---11---14---12--11----12----11---12---11--9------|
A|---9----12---9---9-----9-----12---12---12--9------|
E|-------------------------------------------7------|


E|-------------------------------|-------------------------------------|
B|-------------------------------|-------------------------------------|
G|-------------------------------|-------------------------------------|
D|-11---14---12--11------12------|-11---12---11--9---------------------|
A|-9----12---9---9-------9-------|-12---12---12--7---7--7--7--7--7--7--|
E|-------------------------------|-------------------------------------|

E|-------------------------------|-----------------|
B|-------------------------------|-----------------|
G|-------------------------------|-----------------|
D|-11---14---12--11------12------|-12----11---9----|
A|-9----12---9---9-------9-------|-12----12---7----|
E|-------------------------------|-----------------|



E|-----------|
B|-----------|
G|----6------|
D|----6------|
A|----4------|
E|-----------|


Zwrotka:

E|---------------------------------|---------------------------------|
B|---------------------------------|---------------------------------|
G|---------------------------------|---------------------------------|
D|---------------------------------|---------------------------------|
A|---------------------------------|---------------------------------|
E|-2-2-2-2-2-2-2-2-2-2-2-2-2-2-2-2-|-2-2-2-2-2-2-2-2-2-2-2-2-2-2-2-2-|


E|---------------------------------|--------------------------------|
B|---------------------------------|--------------------------------|
G|---------------------------------|--------------------------------|
D|---------------------------------|--------------------------------|
A|---------------------------------|--------------------------------|
E|-2-2-2-2-2-2-2-2-2-2-2-2-2-2-2-2-|-2-2-2-2-2-2-2-2-5-4-2-0-4-2-0--|


E|---------------------------------|---------------------------------|
B|---------------------------------|---------------------------------|
G|---------------------------------|---------------------------------|
D|---------------------------------|---------------------------------|
A|---------------------------------|-2-2-2-2-2-2-2-2-2-2-2-2-2-2-2-2-|
E|-2-2-2-2-2-2-2-2-2-2-2-2-2-2-2-2-|---------------------------------|


E|----------------------------------|----------------------------------|
B|----------------------------------|----------------------------------|
G|----------------------------------|----------------------------------|
D|----------------------------------|----------------------------------|
A|-0-0-0-0-0-0-0-0-0-0-0-0-0-0-0-0--|-4-4-4-4-4-4-4-4-4-4-4-4-4-4-4-4--|
E|----------------------------------|----------------------------------|


E|--------|--------|--------|-----------------------|
B|--------|--------|--------|-----------------------|
G|-2------|--------|--------|-----------------------|
D|-2------|-2------|-4------|-7-------7-------4-----|
A|-0------|-2------|-4------|-5-------4-------2-----|
E|--------|-0------|-2------|-----------------------|


E|--------|--------|--------|--------|--------|
B|--------|--------|--------|--------|--------|
G|-2------|--------|-7------|-6------|-6------|
D|-2------|-2------|-7------|-6------|-6------|
A|-0------|-2------|-5------|-4------|-4------|
E|--------|-0------|--------|--------|--------|


Taby i akordy do 40-1 - Sabaton . Znajdź najlepsze gitarowe chwyty do 40-1. Zagraj Sabaton 40-1 chords.

Zobacz inne opracowania Sabaton
    Skomentuj Sabaton - 40-1 Tab
    • (will not be published)