Home » Tabulatury i chwyty » T » Ten Years After » 50000 Miles Beneath My Brain

Ten Years After - 50000 Miles Beneath My Brain Tab Chords


E|-------------------------------------------------------------|
H|-------------------------------------------------------------|
G|-------------------------------------------------------------|
D|-------------------------------------------------------------|
A|----11-12-14-16---11-12-14-12-11---9-11-12-11-9---7-9-5-7----|
E|----0-------------0----------------0--------------0----------|

 

Refren:

      A  G      E
E|---------------------------------------|
H|---------------------------------------|
G|---------------------------------------|
D|---------------------2p0---------------|
A|--------------------------2p0----------|
E|--------------------------------3p0----|


 

E D A E

Taby i akordy do 50000 Miles Beneath My Brain - Ten Years After . Znajdź najlepsze gitarowe chwyty do 50000 Miles Beneath My Brain. Zagraj Ten Years After 50000 Miles Beneath My Brain chords.

Skomentuj Ten Years After - 50000 Miles Beneath My Brain Tab Chords
  • (will not be published)