Home » Tabulatury i chwyty » T » Ten Years After » Love Like A Man

Ten Years After - Love Like A Man Tab Chords

E|-----------------------------------------|
H|-----------------------------------------|
G|-----------------------------------------|
D|-------------------------------5---------|
A|-------5--6--7-----5-----5--------7------|
E|----7-----------------7-----7------------| 

      D     A          E
E|----------------|----------|
H|----------------|----------|
G|----7-----------|----------|
D|----7-----7-----|----2-----|
A|----5-----7-----|----2-----|
E|----------5-----|----0-----|


E|-----------------------------------------|
H|-----------------------------------------|
G|-------------------------------5---------|
D|-------5--6--7-----5-----5--------7------|
A|----7-----------------7-----7------------| 
E|-----------------------------------------|


| H A | E | - przed solo

Taby i akordy do Love Like A Man - Ten Years After . Znajdź najlepsze gitarowe chwyty do Love Like A Man. Zagraj Ten Years After Love Like A Man chords.

Skomentuj Ten Years After - Love Like A Man Tab Chords
  • (will not be published)