Home » Tabulatury i chwyty » T » The Winery Dogs » Im No Angel

The Winery Dogs - Im No Angel Tab


E||-------------------------|--------------------------|---------------------------|
B||------------5-------4b---|-----4pbr----2-----2------|---------------2-----------|
G||-------------------------|----------------4-----4b--|--------pbr----------------|
D||-------------------------|--------------------------|---------------------------|
A||--2h--4--4-------2-------|----------------------0---|---------------------------|
E||-------------------------|--------------------------|------------------4--------|

  
   -------------------------|--------------------------|---------------------------|
   -------------------------|------------5-------4b----|------4pbr----2-----2------|
   ----4-----------3s--1----|--------------------------|-----------------4-----4b--|
   ----4-----------4s--2----|--------------------------|---------------------------|
   -------------------------|--2h--4--4-------2--------|-----------------------0---|
   ---------0h--2-----------|--------------------------|---------------------------|

     
   -------------------------|--------------------------||
   -----------------2-------|--------------------------||
   ----------pbr------------|-----4-----------3s--1----||
   -------------------------|-----4-----------4s--2----||
   -------------------------|--------------------------||
   --------------------4----|----------0h--2-----------||

Taby i akordy do Im No Angel - The Winery Dogs . Znajdź najlepsze gitarowe chwyty do Im No Angel. Zagraj The Winery Dogs Im No Angel chords.

Zobacz inne opracowania The Winery Dogs
Skomentuj The Winery Dogs - Im No Angel Tab
  • (will not be published)