Home » Tabulatury i chwyty » T » TSA » 51

TSA - 51 Tab Chords


Zwrotka:

E|---------------0------------|---------------0-------------|
H|------------0-----0---------|------------0-----0----------|
G|---------9-----------9------|---------7-----------7-------|
D|------9-----------------9---|------7-----------------7----|
A|---7------------------------|---5-------------------------|
E|----------------------------|-----------------------------|


E|---------------0------------|---------------0-------------|
H|------------0-----0---------|------------0-----0----------|
G|---------5-----------5------|---------7-----------7-------|
D|------5-----------------5---|------7-----------------7----|
A|---3------------------------|---5-------------------------|
E|----------------------------|-----------------------------|

 

Solo intro:

E|------------------|------------------|-------------------------|
H|------------------|--8---------------|--8b---8-----------------|
G|--------------9---|--------------9---|---------------------9---|
D|--------9---------|----------9-------|-----------------9-------|
A|------------------|------------------|-------------------------|
E|------------------|------------------|-------------------------|


E|-----------------------|----------10----------|-------10----------10----------|
H|--8b---8-----7--8--10--|-10b---------10b--8---|--10b-------8---------10b--8---|
G|-----------------------|----------------------|-------------------------------|
D|-----------------------|----------------------|-------------------------------|
A|-----------------------|----------------------|-------------------------------|
E|-----------------------|----------------------|-------------------------------|


E|-----------------|----------------|-------------12---------------|------------|
H|---7b-----10b----|----------7h8p--|-7-----10-12----12-10-----10--|--8---------|
G|-----------------|----------------|-----------------------12-----|------------|
D|-----------------|----------------|------------------------------|------------|
A|-----------------|----------------|------------------------------|------------|
E|-----------------|----------------|------------------------------|------------|


 

Refren:

      A5        H5
E|---------|----------7--7----|
H|---------|----------7--7----|
G|---------|----------7--7----|         x4
D|----7----|----9-------------|
A|----7----|----9-------------|
E|----5----|----7-------------|


Taby i akordy do 51 - TSA . Znajdź najlepsze gitarowe chwyty do 51. Zagraj TSA 51 chords.

Skomentuj TSA - 51 Tab Chords
  • (will not be published)