Home » Tabulatury i chwyty » T » TSA » Alien

TSA - Alien Tab

Intro gramy 2 razy:

--0-------------------------------------------------------------------
--0-------------------------------------------------------------------
--0-2-----2------0-----4---------2-----4------------------------------
--2-2---2------5-----4---4-----2-----4--------------------------------
--2-0-0------7-----5-------4-3-----5-----0-2----2---------------------
--0------------------------------------------3--0---------------------


I zwrotka

----0---------------------------------------------------------------------------------
-0----3-------------------------------------------------0-----------------------------
-0----------0---------2------------0-----4-----2----------------2--------4------------
-2--------2---------2--2---------5-----4-----2---2---4----4---2---2----4---------------
-2------3-----3-2-0------0-3s7-7-----5-----3-------2--------3------3s5----0h2----------
-0----------------------------------------------------------------------------3-0-----


Gramy drugi raz to samo, z tym, że na końcu:

---------------0---------------------------------------------------
-------0-----------------------------------------------------------
-------------------------------------------------------------------
----4-----4--------------------------------------------------------
--2---------2------------------------------------------------------

?We śnie...? jak w intrze, z tym że po:

-0--0---------------------------------------------------------------
-0----3-------------------------------------------------------------
-0-----0--------2---------------------------------------------------
-2-------0----2-----------------------------------------------------
-2---------0--------------------------------------------------------
-0------------------------------------------------------------------


Akustyczne solo:

------------3~~-0------------------3~~-0-------------------------
------------3~~------3p0----0------3~~-----0---------------------
-----12ah---0~~--------------------0~~--------1-1h2p1-0----------
--------------------------2--------------------------------------
-------------------0------0--------------------------------------
--x--------------------------------------------------------------

-------------3-5s6-5-5(b)nh--3-6--3-0-5s6-3-0~~-----------------
---------1h3----------------------3-----------------------------
-----2h4--------------------------0-----------------------------
-2h4------------------------------------------------------------
----------------------------------------------------------------
----------------------------------------------------------------


Refren:

---------------------------- --------------------------
---------------------------- -------------------------
---5-7-5-4------------------ --5-2-5-7-----------------
-2-5-7-5-4-2-----0h2-----0h2 --5-2-5-7-2-----0h2-------
-2-3-5-3-2-2-0h2-----0h2---- --3-0-3-5-2-0h2-----0h2---
-0---------0---------------- ---------0-------------3-

---------------0-----0---- --------------
---------------0-----0---- --------------
----5-7-5-4----0-----0---- ---5-7-5-4-----
----5-7-5-4-2--2--2--2---- -2-5-7-5-4-2---
----3-5-3-2-2--2--2--2---- -2-3-5-3-2-2---
------------0--0--0--0---- -0---------0---

Taby i akordy do Alien - TSA . Znajdź najlepsze gitarowe chwyty do Alien. Zagraj TSA Alien chords.

Skomentuj TSA - Alien Tab
  • (will not be published)