Home » Tabulatury i chwyty » T » TSA » Heavy Metal Świat

TSA - Heavy Metal Świat Tab

Intro
                                                                           x2
------------------------------------------------------------------------------|
-----8------------------8--------------------8------------------8-------------|
-----7------------------7--------------------7------------------7-------------|
-2---6----2-------0-2---6----2----5-7----2---6----2-------0-2---6----2----7-5-|
-2---7----2----0h2--2---7----2----5-7----2---7----2----0h2--2---7----2----7-5-|
-0-00-----0-00------0-00-----0-00-3-5----0-00-----0-00------0-00-----0-00-5-3-|

------
------
--2---
--2---
--0---
------


zwrotka

-0---------0---------------------
-0---------3---------3---3-------
-9---------2---------0---0-------
-9---------0---------0---x---2---
-7-------------------x---3---2---
-0-------------------3-------0---

-0---------0-----------------------
-0---------3---------3---3---------
-9---------2---------0---0---------
-9---------0---------0---x---2---5-
-7-------------------x---3---2---5-
-0-------------------3-------0---3-

-0---------0-------------------------
-0---------3---------3---3-----------
-9---------2---------0---0-----------
-9---------0---------0---x---2--x\---
-7-------------------x---3---2----\--
-0-------------------3-------0-----\-

-0---------0-------------------------
-0---------3---------3---3-----------
-9---------2---------0---0-----------
-9---------0---------0---x---2--x\---
-7-------------------x---3---2----\--
-0-------------------3-------0-----\-


Refren

--------------------- ---------------------------
--------------------- -3-3-----------------------
-------------2------- -2-2----2---4--------4-4-2-
-5---2-------2---2--- -0-0----2---4------4---4-2-
-5---2-------0---2--- --------0---2----2-----2-0-
-3---0---0h3-----0--- ---------------------------

--------------------- ----------------------------------
--------------------- -3-3------------------------------
-------------2------- -2-2----2---4--------4-4----------
-5---2-------2---2--- -0-0----2---4------4---4----------
-5---2-------0---2--- --------0---2----2-----2---2-0----
-3---0---0h3-----0--- -------------------------------3^-


P.M. --|

   --|  --|  --|  --|
---------------------
---------------------
---------------------
-2----2----2----2----
-2----2----2----2----
-0-00-0-00-0-00-0-00- cztery razy


Zwrotka

-0---------0-------------------------------
-0---------3---------3---3-----------------
-9---------2---------0---0-----------------
-9---------0---------0---x---2---2p0-------
-7-------------------x---3---2------2-0----
-0-------------------3-------0----------3~-

-0---------0-----------------------
-0---------3---------3---3---------
-9---------2---------0---0---------
-9---------0---------0---x---2---5-
-7-------------------x---3---2---5-
-0-------------------3-------0---3-

-0---------0-------------------------
-0---------3---------3---3-----------
-9---------2---------0---0-----------
-9---------0---------0---x---2-----/x
-7-------------------x---3---2----/--
-0-------------------3-------0---/---

-0---------0-------------------------
-0---------3---------3---3-----------
-9---------2---------0---0-----------
-9---------0---------0---x---2--x\---
-7-------------------x---3---2----\--
-0-------------------3-------0-----\-


refren
...
solo

P.M. --|

   --|  --|  --|  --|
---------------------
---------------------
---------------------
-2----2----2----2----
-2----2----2----2----
-0-00-0-00-0-00-0-00-


refren (nie 2, a cztery razy)
...

Taby i akordy do Heavy Metal Świat - TSA . Znajdź najlepsze gitarowe chwyty do Heavy Metal Świat. Zagraj TSA Heavy Metal Świat chords.

Skomentuj TSA - Heavy Metal Świat Tab
  • (will not be published)