Home » Tabulatury i chwyty » T » TSA » Kocica

TSA - Kocica Tab

Intro:

E6|------------------------------------|
F|-------------------------------------|
G|------------2------------------------|
D|------------0-2---------------5-5----|
A|--------2-4---0-2--------2-4--3-2-2--|
E6|-0-3-4---------0--0-3-4----------0--|


E6|-------------------------------------------|
F|--------------------------------------------|
G|------------7-2------------------7-2-----2--|
D|------------5-0-5-5--------------5-0-5-5-0--|
A|--------2-4-----3-2-2--------2-4-----3-2----|
E6|-0-3-4-------------0--0-3-4----------------|


Zw:


E6|------------------|------------------------|
F|-------------------|------------------------|
G|-------------------|------------------------|
D|-------------------|-7----7----7----7-------|
A|--7--7-5--5-5--5-5-|-5-7--5-5--5-5--5-5-----|
E6|-5--5-3--3-2--2-3-|---5----3----2----3-----|


Refren:


E6|------------------------------------------------------------------|
F|-------------------------------------------------------------------|
G|--------------7-2----------7-2--------------2----------------------|
D|--2-------2-4-5-0-2--------5-0--------------0-2--------------5-5-2-|
A|--0-0-3-4---------0--0-3-4-----2--------2-4---0-2--------2-4-3-2-0-|
E6|------------------------------0--0-3-4---------0--0-3-4-----------|


Zagrywka przed solo:

E6|----------------------------|
F|-----------------------------|
G|-----7-9----------7-9--------|
D|---9-----7------9-----7---2--|
A|-----------------------------|
E6|----------7-0----------3----|

Taby i akordy do Kocica - TSA . Znajdź najlepsze gitarowe chwyty do Kocica. Zagraj TSA Kocica chords.

Komentarze
  1. Pers

    tam w intro na koniec nie ma czasem czegoś takiego?

    E6|------------------------------------|
    F|-------------------------------------|
    G|------------2---------------------------------|
    D|------------0-2------------------------5-5----|
    A|--------2-4---0-2----------2-4--5-5----3-2-2--|
    E6|-0-3-4---------0--0-3-4-------3-2---------0--|
    
Skomentuj TSA - Kocica Tab
  • (will not be published)