Home » Tabulatury i chwyty » T » TSA » Maratończyk

TSA - Maratończyk Tab

       intro
E--------------------------------------
H--------------------------------------
G----------------------------------2-0-  X 4
D--2-2-------2-2-------2-2-------2-0---
A--0-0-3b(0)-0-0-3b(0)-0-0-3b(o)-0-----
E--------------------------------------


        zwrotka x 4

E--------------------------------------
H--------------------------------------
G----------------------------------2-0- x 6
D--2-2-------2-2-------2-2-------2-0---
A--0-0-3b(0)-0-0-3b(0)-0-0-3b(o)-0-----
E--------------------------------------

E-------------------------------------------------------------------------
H-------------------------------------------------------------------------
G-2-2----------------------------------2-0--------------------------------
D-0-0--2-2-------2-2-------2-2-------2-0----2-2-------2-2-------2-2-------
A------0-0-3b(0)-0-0-3b(0)-0-0-3B(0)-0------0-0-3b(0)-0-0-3b(0)-0-0-3b(0)-
E-------------------------------------------------------------------------

E-------------------------------
H-------------------------------
G-------------------------------
D---------------2-2-----------2-
A-----4-2-5-2-------5-5-4-4---0-
E-0-0---------3-------------3---

Taby i akordy do Maratończyk - TSA . Znajdź najlepsze gitarowe chwyty do Maratończyk. Zagraj TSA Maratończyk chords.

Skomentuj TSA - Maratończyk Tab
  • (will not be published)