Home » Tabulatury i chwyty » T » TSA » Zwierzenia Kontestatora

TSA - Zwierzenia Kontestatora Tab Chords


Intro:

E|----------------------------------------------------------------|
H|----------------------------------------------------------------|
G|-----------------------------------------------------/14--12----|
D|----2-------------2--5--4--2---------------2--2------/14--12----|
A|----0----0--3--4--------------5--4--2------0--0-----------------|
E|----------------------------------------------------------------|



Zwrotka:

     A
E|------------------------------------------------------|
H|------------------------------------------------------|
G|------------------------------------------------------|
D|---2---2--2---2--2-------------2--5--4--2-------------|
A|---0---0--0---0--0----0--3--4--------------5--4--2----|
E|------------------------------------------------------|

     A                G      D   (G)
E|-------------------------------------|
H|-------------------------------------|
G|---------------------------7---(0)---|
D|---2---2--2---2------5-----7---(0)---|
A|---0---0--0---0------5-----5---(0)---|
E|---------------------3---------------|


Refren:

       F      G      A
E|---------------------------|
H|---------------------------|
G|-------------------2-------|
D|-----3------5------2-------|
A|-----3------5------0-------|
E|-----1------3--------------|

Taby i akordy do Zwierzenia Kontestatora - TSA . Znajdź najlepsze gitarowe chwyty do Zwierzenia Kontestatora. Zagraj TSA Zwierzenia Kontestatora chords.

Skomentuj TSA - Zwierzenia Kontestatora Tab Chords
  • (will not be published)