Home » Tabulatury i chwyty » U » U2 » Hold Me, Thrill Me, Kiss Me, Kill Me

U2 - Hold Me, Thrill Me, Kiss Me, Kill Me

Intro:

       E      D      H     G      x3      E      D      H      F 
E|----------------------------------|----------------------------------|
H|----------------------------------|----------------------------------|
G|-----9------7------4--------------|-----9------7------4--------------|
D|-----9------7------4------5---5---|-----9------7------4------3---3---|
A|-----7------5------2------5---5---|-----7------5------2------3---3---|
E|--------------------------3---3---|--------------------------1---1---|

 

Zwrotka:

E|--------------------------|---------------------------|
H|--------------------------|---------------------------|
G|--------------------------|---------------------------|
D|--------------------------|---------------------------|
A|---7----7--7--5h-7----7---|---5h-7--7--7----5--5--5---|
E|---0----0--0--0--0----0---|---0--0--0--0----0--0--0---|

     A                                      G 
E|---------------------|----------------|---------------------|----------------|
H|---------------------|----------------|---------------------|----------------|
G|---------------------|----------------|---------------------|----------------|
D|---------------------|----------------|---------------------|----------------|
A|---7-----7-----7-----|----7-----7-----|---5-----5-----5-----|----5-----5-----|
E|---5-----5-----5-----|----5-----5-----|---3-----3-----3-----|----3-----3-----|

 

Refren:

     H           A                   F             G
E|-------------------|------------|--------------------|-----------|
H|-------------------|------------|--------------------|-----------|
G|---9---8---6---8---|---8b-------|---5---7---5----5---|---4-------|
D|-------------------|------------|--------------------|-----------|
A|-------------------|------------|--------------------|-----------|
E|-------------------|------------|--------------------|-----------|

Taby i akordy do Hold Me, Thrill Me, Kiss Me, Kill Me - U2 . Znajdź najlepsze gitarowe chwyty do Hold Me, Thrill Me, Kiss Me, Kill Me. Zagraj U2 Hold Me, Thrill Me, Kiss Me, Kill Me chords.

Skomentuj U2 - Hold Me, Thrill Me, Kiss Me, Kill Me
  • (will not be published)