Home » Tabulatury i chwyty » U » U2 » Stay (Faraway, So Close)

U2 - Stay (Faraway, So Close) Tab Chords


wersja live

 
Zwrotka:

       E    F#   A    E
E|-----0----0----0----0-----|
H|-----0----0----0----0-----|
G|-----1----3----4----1-----|
D|-----2----4----7----2-----|
A|-----2----4----7----2-----|
E|-----0----2----5----0-----|

 

     A/F#   E/G#   x2    H   (A  E - 1zw)
E|----0-----0------------0---|
H|----2-----0------------0---|
G|----2-----1------------8---|
D|----2-----2------------9---|
A|----0-----2------------9---|
E|----2-----4------------7---|

 

Refren:

A/F#   E



Taby i akordy do Stay (Faraway, So Close) - U2 . Znajdź najlepsze gitarowe chwyty do Stay (Faraway, So Close). Zagraj U2 Stay (Faraway, So Close) chords.

Skomentuj U2 - Stay (Faraway, So Close) Tab Chords
  • (will not be published)