Home » Tabulatury i chwyty » U » U2 » Sunday Bloody Sunday

U2 - Sunday Bloody Sunday

(gitara przestrojona pół tonu niżej)

Zwrotka:

     Hm           D                G6
E|----------2-----------2------|---------0-----------0----------|
H|-------3-----3-----3-----3---|------3-----3-----3-----3-------|
G|----4-----------2------------|---0-----------0-----------4----|
D|-----------------------------|--------------------------------|
A|-----------------------------|--------------------------------|
E|-----------------------------|--------------------------------|

 

Przejście przed refrenem:

 | D | Em | x2

How long...

 

Refren:

      H5      D5          G5
E|------------------|------------|
H|------------------|------------|
G|------------7-----|-----12-----|
D|-----5------7-----|-----12-----|
A|-----5------5-----|-----10-----|
E|-----7------------|------------|

 

Przed II zwr.:

| F Em7 | D |

Taby i akordy do Sunday Bloody Sunday - U2 . Znajdź najlepsze gitarowe chwyty do Sunday Bloody Sunday. Zagraj U2 Sunday Bloody Sunday chords.

Skomentuj U2 - Sunday Bloody Sunday
  • (will not be published)