Home » Tabulatury i chwyty » V » Vader » Whisper

Vader - Whisper Tab


C#|-----------------------------------------------------------------|
G#|-----------------------------------------------------------------|
 E|-----------------------------------------------------------------|    x4
 B|-----------------------------------------------------------------|
F#|-----------------------------------------------------------------|
C#|-2-2-2-2-2-2-2-2-3-3-3-3-2-2-2-2-2-2-2-2-0-0-0-0-0-0-0-0-1-1-1-1-|


C#|-----------------------------------------------------------------|
G#|-----------------------------------------------------------------|
 E|-----------------------------------------------------------------|    x3
 B|-----------------------------------------------------------------|
F#|-----------------------------------------------------------------|
C#|-5-5-5-5-5-5-5-5-6-6-6-6-5-5-5-5-0-0-0-0-0-0-0-0-4-4-4-4-6-6-6-6-|


C#|-----------------------------------------------------------------|
G#|-----------------------------------------------------------------|
 E|-----------------------------------------------------------------|
 B|-----------------------------------------------------------------|
F#|-----------------------------------------------------------------|
C#|-5-5-5-5-5-5-5-5-6-6-6-6-5-5-5-5-5-5-5-5-5-5-5-5-6-6-6-6-5-5-5-5-|


C#|-----------------------------------------------------------------|
G#|-----------------------------------------------------------------|
 E|-----------------------------------------------------------------|    x3
 B|-----------------------------------------------------------------|
F#|---------2-2-2-2-1-1-1-1-1-1-1-1-3-3-3-3-------------------------|
C#|-2-2-2-2---------------------------------5-5-5-5-1-1-1-1-3-3-3-3-|

C#|-----------------------------------------------------------------|
G#|-----------------------------------------------------------------|
 E|-----------------------------------------------------------------|
 B|-----------------------------------------------------------------|
F#|---------2-2-2-2-1-1-1-1-1-1-1-1-3-3-3-3-------------------------|
C#|-2-2-2-2---------------------------------5-5-5-5-5-5-5-5-5-5-5-5-|


C#|--------|--------|-----------------------------------------------------------------|
G#|--------|--------|-----------------------------------------------------------------|
 E|--------|--------|-----------------------------------------------------------------|
 B|-5------|-5------|-----------------------------------------------------------------|
F#|-3------|-3------|-----------------6-6-6-6-5-5-5-5-5-5-5-5-5-5-5-5-5-5-5-5-5-5-5-5-|
C#|-3------|-3------|-0-0-0-0-0-0-0-0-------------------------------------------------|


C#|-----------------------------------------------------------------|
G#|-----------------------------------------------------------------|
 E|-----------------------------------------------------------------|     x5
 B|-----------------------------------------------------------------|
F#|-----------------6-6-6-6-5-5-5-5-5-5-5-5-5-5-5-5-5-5-5-5-5-5-5-5-|
C#|-0-0-0-0-0-0-0-0-------------------------------------------------|

C#|-----------------------------------------------------------------|
G#|-----------------------------------------------------------------|
 E|-----------------------------------------------------------------|
 B|-----------------------------------------------------------------|
F#|-----------------6-6-6-6-6-6-6-6-5-5-5-5-5-5-5-5-4-4-4-4-4-4-4-4-|
C#|-0-0-0-0-0-0-0-0-------------------------------------------------|

Taby i akordy do Whisper - Vader . Znajdź najlepsze gitarowe chwyty do Whisper. Zagraj Vader Whisper chords.

Zobacz inne opracowania Vader
    Skomentuj Vader - Whisper Tab
    • (will not be published)