Home » Tabulatury i chwyty » W » White Stripes » Seven Nation Army (2)

White Stripes - Seven Nation Army (2) Tab



E|--------------------------------------|
H|--------------------------------------|
G|--------------------------------------|  
D|--------------------------------------|    x12.
A|----7-----7---10---7---5---3-----2----|
E|--------------------------------------|



E|-------------------------------0-|
H|-----------------------------0-0-|
G|---------------------------0-0-0-|
D|-5-5-5-5-5-5-5-5-0-0-0-0-0-0-0-0-|
A|-5-5-5-5-5-5-5-5-0-0-0-0-0-0-0-0-|
E|-3-3-3-3-3-3-3-3-0-0-0-0-0-0-0-0-|


E|-------------------------------------------|
H|-------------------------------------------|
G|-9--9-12-9-7-5--4----9--9-12-9-7-5//7-5-4--|   x4.
D|-9--9-12-9-7-5--4----9--9-12-9-7-5//7-5-4--|
A|-7--7-10-7-5-3--2----7--7-10-7-5-3//5-3-2--|
E|-------------------------------------------|

Taby i akordy do Seven Nation Army (2) - White Stripes . Znajdź najlepsze gitarowe chwyty do Seven Nation Army (2). Zagraj White Stripes Seven Nation Army (2) chords.

Skomentuj White Stripes - Seven Nation Army (2) Tab
  • (will not be published)