Yugopolis & Maciej Maleńczuk - Ostatnia Nocka Tab


E|-----------------------------|------------------------------|
H|-----------------------------|------------------------------|
G|-------2-----2-----2-----2---|-------0-----0-----0-----0----|
D|----------2-----------2------|----------------------2-------|
A|----0-----------3------------|----------2-----3-------------|
E|-----------------------------|----3-------------------------|

E|-----------------------------|------------------------------|
H|-------1-----1-----1-----1---|-------1-----1-----1-----1----|
G|----------0-----2------------|------------------------------|
D|----3-----------------3------|----2-----0-------------------|
A|-----------------------------|----------------3-----2-------|
E|-----------------------------|------------------------------|

Taby i akordy do Ostatnia Nocka - Yugopolis & Maciej Maleńczuk . Znajdź najlepsze gitarowe chwyty do Ostatnia Nocka. Zagraj Yugopolis & Maciej Maleńczuk Ostatnia Nocka chords.

Zobacz inne opracowania Yugopolis & Maciej Maleńczuk
    Skomentuj Yugopolis & Maciej Maleńczuk - Ostatnia Nocka Tab
    • (will not be published)