Przykłady

Led Zeppelin – Stairway To Heaven

|--------0--2------2--3------3-------0--------0----------2--0--0---0-/8-7-|
|------0------0---------0-------2---2--------1----1------3--0--0----------|
|----0----------0---------0-------2--------0--------0----2--0--0----------|
|--2--------1---------0---------2--------2------------2--0--2--2----------|

|--------0--2------2--3------3-------0--------0----------2--0--0---|
|------0------0---------0-------2---2--------1----1------3--0--0---|
|----0----------0---------0-------2--------0--------0----2--0--0---|
|--2--------1---------0---------2--------2------------2--0--2--2---|

|-0-2-3-----3-0-----0-0-----0-2h3---0-2-3-----3-2-----2-2p0-0----|
|---------0-----2-------1---------0-------0-------3-----3---2----|
|-------0-----2---2---0---0-----------------0-------2---2---2----|
|-----------------------------2-----------------0----------------|

|-0-2-3-----3-0-----0-0-----0-2h3---0-2-3-----3-------0-7-7-7----|
|---------0-----2-------1---------0---------0-------2---5-5-5----|
|-------0-----2---2---0---0---------------0-------2-----5-5-5----|
|-----------------------------2-----------------2-------5-5-5----|

 

Eric Clapton – Tears In Heaven

|-----0-0-4h5p5-0--7---7-4----4----4---4----5---5----5---5---|
|-0h2-0------------4-4---5---------5--------2-2---2--4-----4-|
|-----1------------4-----6--6---6--4-4---4--2--------4-4-----|
|-----2------------4------------------------2--------4-------|

|-4--4-4-4-----0-0-4h5p4-0--7---7-4----4----4---4----5---5---|
|-5-5-5-5--0h2-0------------4-4---5---------5--------2-2---2-|
|-4------------1------------4-----6--6---6--4-4---4--2-------|
|-6------------2------------4------------------------2-------|

 

The Beatles – While My Guitar Gently Weeps

A|------------|------------5----6-----------|--3-----------5-------6-------|
E|--------3---|--6/8----------------8-------|--6-------6-------------------|
C|------------|--0---------0----------------|--0-----------0---------------|
G|----0-------|--------0--------0-------0---|--0---0-----------0-------0---|


A|-3-------3---5-------6------|--8------6---6---6---6--6--|--3/0-------6-----------8--|
E|-5-------5------------------|--4------4---4---4---4--4--|--3/11------8-----------6--|
C|-0-----------0--------------|--0------0---0---0---0--0--|--3/10----------0-------5--|
G|-0---0-----------0-------0--|-----0---0---0---0---------|--0------0----------0---0--|


A|-----------5h8p5---------5-------|---3-----------------------3---|-----------2------|
E|------------------6--6---6-------|---5-----------5-----------4---|-----------3------|
C|-------5-------------5---5---0---|---3-------3----------3----3---|-------2---2------|
G|---0-----------------0-------0---|-------0-----------0-------0---|---0-------0------|

(zobacz video jak zagrać)

 

System of a Down – Chop Suey

|--1-3-0-x-1-3-0-5---|
|--3-3-3-3-3-3-3-3---|
|--2-2-2-2-2-2-2-2---|
|--0-0-0-0-0-0-0-0---|