Lekcja 2 / Akordy

Na początek pare nowych akordów:

Akord Asus4 możemy także złapać innymi palcami, w zależności z jakiego akordu wcześniej będziemy zmieniać:

E|-----|-----|-----|         
H|-(1)-|-----|--4--|         
G|-----|--3--|-----|      podczas zmiany z Am
D|-----|--2--|-----|         
A|-----|-----|-----|         
E|-----|-----|-----|

 

Podobnie jest z akordem Dsus2:

E|-----|-----|-----|         
H|-----|-----|--3--|         
G|-----|--1--|-----|      podczas zmiany z D
D|-----|-----|-----|         
A|-----|-----|-----|         
E|-----|-----|-----|

 

(Cadd9)

Podczas chwytania Fmaj7 możemy dodatkowo złapać dźwięk C na III progu struny A:

E|-----|-----|-----|         
H|--1--|-----|-----|         
G|-----|--2--|-----|         
D|-----|-----|--4--|         
A|-----|-----|--3--|         
E|-----|-----|-----|