Lekcja 8 / Dropped

Teoria:

Aby normalny strój przestroić na dropped D należy strunę E obniżyć o cały ton (analogicznie do każdego innego stroju).

E|----          E|----
H|----          H|----
G|----    =>    G|----
D|----          D|----
A|----          A|----
E|----          D|----

Wówczas akord E5 wygląda następująco:

E|-----------|          E|-----------|
H|-----------|          H|-----------|
G|-----------|    =>    G|-----------|
D|-----2-----|          D|-----2-----|
A|-----2-----|          A|-----2-----|
E|-----0-----|          D|-----2-----|

 

 

Przykłady:

Godsmack – Keep Away:

E|----------------------------------|-------------------------------------------|
H|----------------------------------|-------------------------------------------|
G|----------------------------------|-------------------------------------------|
D|-0----0-------0--3--3---3---3--3--|-5--5--5---5---5--5--6--6--6--6--5--3---0--|
A|-0----0-------0--3--3---3---3--3--|-5--5--5---5---5--5--6--6--6--6--5--3---0--|
D|-0----0-------0--3--3---3---3--3--|-5--5--5---5---5--5--6--6--6--6--5--3---0--|

 

Led Zeppelin – Moby Dick:

                                      x4                                     x2
E|--------------------------------------||-------------------------------------||
H|--------------------------------------||-------------------------------------||
G|-------------------------------------*||*-----------------------------------*||
D|-------------------------------------*||*-----5---5--3----------------------*||
A|------5---5--3------------------------||----------------5--1---3--1---3--1---||
D|---0------------5--3---5--3---5---3---||---5---------------------------------||

                                      x2
E|--------------------------------------||------------------------------------|
H|--------------------------------------||------------------------------------|
G|*------------------------------------*||------------------------------------|
D|*------------------------------------*||------7---7--5-----7---7------5--7--|
A|------5---5--3------------------------||----------------7----------7--------|
D|---0------------5--3---5--3---5---3---||---5--------------------------------|

E|---------------------------------------------||
H|---------------------------------------------||
G|-------------------------5b----5-------------||
D|---5--5--5--5--5--3---------------7---5------||
A|----------------------5------------------8---||
D|---------------------------------------------||