Power Chord / Przykłady

Lenny Kravitz – Fly Away:

E|---------------------------------------------------------|
H|---------------------------------------------------------|
G|---------------4-5-5-5-5-5-----------------7-7-7-7-7-----|
D|---7-7-7-7-7---4-5-5-5-5-5---5-5-5-5-5-5---7-7-7-7-7-----|
A|---7-7-7-7-7---2-3-3-3-3-3---5-5-5-5-5-5---5-5-5-5-5-----|
E|---5-5-5-5-5-----------------3-3-3-3-3-3-----------------|

 

Jett Joan – I Love Rock N Roll:

E|----------------------------------------------------------------------------------|
H|----------------------------------------------------------------------------------|
G|-----------------------2-2----4-4-----------------------------2-2----4-2----------|
D|---2-2----2-2----------2-2----4-4----------2-2----2-2---------2-2----4-2-2----2---|
A|---2-2----2-2----------0-0----2-2----------2-2----2-2---------0-0----2-0-2----2---|
E|---0-0----0-0---0h3~----------------0h3~---0-0----0-0---0h3~-------------0----0---|

 

Deep Purple – Smoke On The Water:

E|----------------------------------------------------------------------|
H|----------------------------------------------------------------------|
G|---------3----5--------------3---6---5--------------3---5---3---------|
D|----5----3----5---------5----3---6---5--------5-----3---5---3---5-----|
A|----5----1----3---------5----1---4---3--------5-----1---3---1---5-----|
E|----3-------------------3---------------------3-----------------3-----|

 

Perfect – Co za hałas co za szum:

E|--------------------------------------------------------------|
H|--------------------------------------------------------------|
G|----5-------5-------------------------------------------------|
D|----5---5---5----5--5--7--7------5---3---3--3--3---5---5------|
A|----3---5---3----5--5--7--7------5---3---3--3--3---5---5------|
E|--------3--------3--3--5--5------3---1---1--1--1---3---3------|

 

Nirvana – Rape Me:

 E|-----------------------------------------------------------------------|
 H|-----------------------------------------------------------------------|
 G|-----------------5--5--5--5--5--5--------------------------------------|
 D|------7---7------5--5--5--5--5--5------2---2------5--5--5--5--5--5-----|
 A|------7---7------3--3--3--3--3--3------2---2------5--5--5--5--5--5-----|
 E|------5---5----------------------------0---0------3--3--3--3--3--3-----|

 

Queen – One Vision:

E|--------------------------------------------------------|
H|--------------------------------------------------------|
G|--7/-----7--7-7/-----5--5-5/-----5--5-5----7--7--7------|
D|--7/-----7--7-7/-----5--5-5/-----5--5-5----7--7--7------|
A|--5/-----4--5-5/-----2--3-3/-----2--3-3----4--5--4------|
E|--------------------------------------------------------|

 

Piersi – Całuj Mnie:

E|-----------------------------------------------|
H|-----------------------------------------------|
G|-----7---7-------------------------------------|
D|-----7---7---7---7---9---9---5---5---7---7-----|
A|-----5---5---7---7---9---9---5---5---7---7-----|
E|-------------5---5---7---7---3---3---5---5-----|

 

Scorpions – Rock You Like A Hurricana

E|---------------------------------------------------------|
H|---------------------------------------------------------|
G|---9--9--9------------------------------5-----7--7-------|
D|---9--9--9--------5--5---------7--7-----5-----7--7-------|
A|---7--7--7--------5--5---------7--7-----3-----5--5-------|
E|------------------3--3---------5--5----------------------|

 

Eric Clapton – Cocaine:

E|------------------------------|
H|------------------------------|
G|----9--9--7--9-------9---7----|
D|----9--9--7--9-------9---7----|
A|----7--7--5--7-------7---5----|
E|------------------------------|