Tabulatury / Teoria

Tabulatura – to system ułatwiajacy czytanie nut na gitarę. Szesć poziomych linii reprezentuje struny gitary. Najwyżej położona linia to struna E (najcieńsza). Każdej nucie na pięciolini odpowiada konkretny zapis w tabulaturze.

E|-----------|
H|-----------|
G|-----------|         uderzamy strunę D na 2 progu
D|-----2-----|
A|-----------|
E|-----------|

E|-----------|
H|-----------|
G|-----7-----|         uderzamy strunę G na 7 progu
D|-----------|
A|-----------|
E|-----------|

E|-----------|
H|-----------|
G|-----5-----|         jednocześnie uderzamy strunę G i D na progu 5
D|-----5-----|
A|-----------|
E|-----------|

 

Podstawowe techniki:

E|---------------|
H|------3h5------|   Hammer-on
G|---------------|   Uderzamy strunę H na 3 progu (palec wskazujący), a następnie
D|---------------|   energicznym ruchem dokładamy palec serdeczny na 5 progu.
A|---------------|
E|---------------|

E|---------------|
H|---------------|   Pull-off
G|------7p6------|   Uderzamy strunę G na 7 progu (palec środkowy) jednocześnie
D|---------------|   trzymając palec wskazujący na 6, a nastepnie energicznym ruchem
A|---------------|   puszczamy palec środkowy.
E|---------------|

E|---------------|
H|---------------|   Slide
G|---------------|   Uderzamy strunę D na 2 progu, a następnie energicznym ruchem
D|----2s5--2/5---|   nie puszczając struny przesuwamy palec na 5 próg.
A|---------------|
E|---------------|

E|---------------|
H|---------------|   Podciągnięcie (bend)
G|------4b-------|   Uderzamy strunę G na 4 progu, a następnie podciągamy ją
D|---------------|   do odpowiedniej wysokości.
A|---------------|
E|---------------|

 

Tabulatury (wszystkie oznaczenia)

 

Ćwiczenia:

Metallica – Nothing Else Matters:

E|-----------0----------|-----------0----------|-----------0----------|
H|--------0-----0-------|--------0-----0-------|--------0-----0-------|
G|-----0-----------0----|-----0-----------0----|-----0-----------0----|
D|----------------------|----------------------|----------------------|
A|----------------------|----------------------|----------------------|
E|--0-------------------|--0-------------------|--0-------------------|

 

Limp Bizkit – Behind Blue Eyes (The Who cover):

     E-moll                           G6
E|-----------------0-------------|----------------0---------------|
H|--------------------0----------|-------------------3------------|
G|------------0----------0-------|------------0---------0---------|
D|---------2----------------0----|---------0---------------0------|
A|------2------------------------|------2-------------------------|
E|---0---------------------------|---3----------------------------|

     Dsus2                    x2   C9                          x2
E|-----------------0-------------|-----------------0--------------|
H|-----------3--------3----------|------------3-------3-----------|
G|-------2---------------2-------|---------0-------------0--------|
D|----0---------------------0----|------2-------------------2-----|
A|-------------------------------|---3----------------------------|
E|-------------------------------|--------------------------------|

                                          x2
E|----------------------0-------------------|
H|------------------------------------------|
G|------------4-------------4-------4-------|
D|--------2-------2-------------2-----------|
A|----0-------------------------------------|
E|------------------------------------------|

 

Jeżeli masz jakieś pytania możesz je kierować na forum.