Home » Tabulatury i chwyty » B » Black Keys » Your Touch

Black Keys - Your Touch Tab Chords

Zwrotka:

E|-----------------------------------------------------------|
H|-----------------------------------------------------------|
G|-----------------------------------------------------------|
D|-----------------------------------------------------------|
A|----0-------------3---0-----5--5--5--5--5-----3--5--3------|
E|---------3---0---------------------------------------------|

 

Zwrotka:

| A | D C |

 

Refren:

E|------------------------------------------|
H|------------------------------------------|
G|---------------5------7--7--5---5--5--5---|
D|----7----------5------7--7--5---5--5--5---|
A|----7----7/----3------5--5--3---3--3--3---|
E|----5-------------------------------------|

Taby i akordy do Your Touch - Black Keys . Znajdź najlepsze gitarowe chwyty do Your Touch. Zagraj Black Keys Your Touch chords.

Skomentuj Black Keys - Your Touch Tab Chords
  • (will not be published)