Home » Tabulatury i chwyty » B » Bryan Adams » Run To You

Bryan Adams - Run To You Tab Chords

Kapo. II


Zwrotka:

E|-----------------------------|-----------------------------|
H|-----------------------------|-----------------------------|
G|-----------------------------|-----------------------------|
D|---------0--------0----------|---------0--------0----------|
A|------2--------2-----2-------|------2--------4-----4-------|
E|---0--------0-----------0----|---3--------5-----------5----|

     C
E|---------------------------------|
H|-----------1--------1-------1----|
G|---------------------------------|    x2     D  (Dsus4)
D|-------2--------2-------2--------|
A|----3--------3-------------------|
E|---------------------------------|

Refren:

Em G D A

Taby i akordy do Run To You - Bryan Adams . Znajdź najlepsze gitarowe chwyty do Run To You. Zagraj Bryan Adams Run To You chords.

Skomentuj Bryan Adams - Run To You Tab Chords
  • (will not be published)