Home » Tabulatury i chwyty » C » Cream » Sunshine of Your Love

Cream - Sunshine of Your Love Tab

E|--------------------------------------------------------|
H|--------------------------------------------------------|
G|--------------------------------------------------------|
D|------12--12---10---12----------------------------------|
A|------------------------12--11--10-------8--------------|
E|------------------------------------10------10----------|
 
E|--------------------------------------------------------|
H|------10--10---8----10----------------------------------|
G|------11--11---9----11------------------10--------------|
D|------12--12---10---12--------------12------12----------|
A|------------------------12--11--10----------------------|
E|--------------------------------------------------------|
                                            

E|--------------------------------------------------------|
H|--------------------------------------------------------|
G|------12--12---10---12----------------------------------|
D|------------------------12--11--10-------8--------------|
A|------------------------------------10------10----------|
E|--------------------------------------------------------|
  I'll be with you darling soon....                                           


Refren:
       A                 C         G
E|-----------------------------------------------|
H|-----------------------------------------------|
G|-----------------------5-----------------------|
D|-----7-7-7-------------5---------5-------------|
A|-----7-7-7-------------3---------5-------------|
E|-----5-5-5-----------------------3-------------|
                                         

Taby i akordy do Sunshine of Your Love - Cream . Znajdź najlepsze gitarowe chwyty do Sunshine of Your Love. Zagraj Cream Sunshine of Your Love chords.

Zobacz inne opracowania Cream
Skomentuj Cream - Sunshine of Your Love Tab
  • (will not be published)