Home » Tabulatury i chwyty » D » Dżem » Whisky

Dżem - Whisky Tab Chords


     Cadd9
E|---|---|-o-|
H|---|---|-o-|
G|---|---|---|
D|---|-o-|---|
A|---|---|-o-|
E|---|---|---|



| G Cadd9 |  - intro


| G Cadd9 |   Mówią o mnie w mieście...

| D |  Brudny, niedomytek...

| C e7 | a7 D |   x2    Czego szuka...

            
           C        e7        a7        D
E|-----------------------------------------------------|
H|--------------------------------------------3--------|
G|---------------0--------0---------0------2-----2-----|
D|------------2--------0---------2------0--------------|
A|---0--2--3--------2---------0------------------------|
E|-----------------------------------------------------|

| G Cadd9 |




Zakończenie: 

| F | C | G | G |

      F                      Cadd9                    G
E|----(3)--(3)---------------(3)--(3)----------------(3)--(3)---------------------------|
H|----(3)--(3)---------------(3)--(3)----------------(3)--(3)---------------------------|
G|----(2)--(2)---------------(0)--(0)----------------(0)--(0)---------------------------|
D|-----3----3----3--2--0-----(2)--(2)----------------(0)--(0)----------------0--2--3----|
A|----------------------------3----3-----3--2--0-----(2)--(2)-------0--2--3-------------|
E|----------------------------------------------------3----3-----3----------------------|



 
jeżeli macie jakieś pytania to piszcie w komentarzach
pozdrawiam piotrek

Taby i akordy do Whisky - Dżem . Znajdź najlepsze gitarowe chwyty do Whisky. Zagraj Dżem Whisky chords.

Komentarze
Skomentuj Dżem - Whisky Tab Chords
  • (will not be published)