Home » Tabulatury i chwyty » E » Eric Clapton » Wonderful Tonight

Eric Clapton - Wonderful Tonight

Intro/solo:

E|----------------------------------------------------|
H|----10b---8--10------10b---8--------10b---8--10-----|
G|------------------------------9---------------------|     x2
D|----------------------------------------------------|
A|----------------------------------------------------|
E|----------------------------------------------------|

E|--------7--8--12--10-----|
H|----10-------------------|
G|-------------------------|
D|-------------------------|
A|-------------------------|
E|-------------------------|


Zwrotka:

| G | D/F# | C | D |   (x2)

| C | D | G G/F# | Em |

| C | D | G | G |


Refren:

| C | D | G G/F# | Em |

| C | D | G | G |


Taby i akordy do Wonderful Tonight - Eric Clapton . Znajdź najlepsze gitarowe chwyty do Wonderful Tonight. Zagraj Eric Clapton Wonderful Tonight chords.

Skomentuj Eric Clapton - Wonderful Tonight
  • (will not be published)