Home » Tabulatury i chwyty » G » Green Day » Time Of Your Life

Green Day - Time Of Your Life Tab Chords

Intro:

    G
E|--------------------|
H|--------------------|
G|-------0--------0---|
D|---------0--------0-|
A|--------------------|
E|---3-3------3-3-----|


Zwrotka:

    G                                     Cadd9                   D
E|------------------|------------------|------------------|-------------------|
H|------------------|------------------|------------------|------3---------3--|
G|------0--------0--|------0--------0--|------0--------0--|---------2---------|
D|--------0---------|--------0---------|--------0---------|--0-0-------0------|
A|------------------|------------------|--3-3-------3-----|-------------------|
E|--3-3-------3-----|--3-3-------3-----|------------------|-------------------|


| Em | D | C | G |  x2

| Em | G | Em | G |

| Em | D | G | G |
?

Taby i akordy do Time Of Your Life - Green Day . Znajdź najlepsze gitarowe chwyty do Time Of Your Life. Zagraj Green Day Time Of Your Life chords.

Skomentuj Green Day - Time Of Your Life Tab Chords
  • (will not be published)